Guitaretab - guitar tabs
Song name
# A B C D E F G H I J K L M N O P Q R S T U V W X Y Z

Misc Television - Fawlty Towers Theme tab

---------------------------------------------------------------------------
	       	        Fawlty Towers Theme Music
---------------------------------------------------------------------------
Tabbed by: @$H
Email: billiejoefanclub@hotmail.com

| /  slide up
| \  slide down
| h  hammer-on
| p  pull-off
| ~  vibrato
| +  harmonic
| x  Mute note

Tuning: Standard

e|---------------------------------------------------------------|---------|
B|----------8-5---------------7-3--------------------------------|---------|
G|4-5-76767-------7-5-4-54545-------5-4---------7-5-454----------|5-7-4-5--|
D|--------------------------------------7-54545---------7-5-45240|--------7|
A|---------------------------------------------------------------|---------|
E|---------------------------------------------------------------|---------|

e|---------------------------------------------------------------|---------|
B|----------8-5---------------7-3--------------------------------|---------|
G|4-5-76767-------7-5-4-54545-------5-4---------7-5-454----------|5-7-4-5--|
D|--------------------------------------7-54545---------7-5-45240|--------7|
A|---------------------------------------------------------------|---------|
E|---------------------------------------------------------------|---------|
[ Tab from: http://www.guitaretab.com/m/misc-television/61425.html ]
e|-------------------------------------------------------------------------|
B|----------8-5---------------7-3----------------------8-7-5---------------|
G|4-5-76767-------7-5-4-54545-------5-4----------7-545-------767-45--------|
D|--------------------------------------7-6-4545--------------------7------|
A|-------------------------------------------------------------------------|
E|-------------------------------------------------------------------------|

e|-------------------------------------------------------------------------|
B|----------8---------------7---------------8---------------7--------------|
G|7p6h7p6h7---7-4-5p4h5p4h5---5---7p6h7p6h7---7-4-5p4h5p4h5---5------------|
D|------------------------------7-------------------------------7----------|
A|-------------------------------------------------------------------------|
E|-------------------------------------------------------------------------|

e|-------------------------------------------------------------------------|
B|-------------------------------------------------------------------------|
G|-------------------------------------------------------------------------|
D|-----------4-----4-------------------------------------------------------|
A|5p4h5p4h5-----5-----5~~~~~-----------------------------------------------|
E|-------------------------------------------------------------------------|
Related for Fawlty Towers Theme tab
Fawlty Towers Theme chords by Misc Television