Song name
# A B C D E F G H I J K L M N O P Q R S T U V W X Y Z

Misc Television - Instant Star - Waste My Time tab

this is basically the tab for the song "Waste My TIme" sang by Jude Harris
(Alexz Johnson) in the new tv show instant star on the-n sorry if the # of repeats is wrong
e-------------------------|
b-------------------------|
g---9--9-------------7----|
d---9--7 (x24?)------5----| repeated throughout the verses
a---7--7-------------5----|
e-------------------------|
      pm......

prechorus:
e------------|
e------------|
b------------|
g---11--9--4-|
d---11--9--4-|
a---9---7--2-|

e------------|
b------------|
g---11--9--4-| 9
d---11--9--4-| 9
a---9---7--2-| 7
e------------|


chorus:
e-------------------------------------------------------------|
b-------------------------------------------------------------|
g---9--9--------4--4----------7---7---------------------------|
d---9--9 (x13)--4--4-(x13)----7---7--(x13)---7---7------------|
a---7--7--------2--2----------5---5--------- 7---7--(x13)-----|
e--------------------------------------------5---5------------|
       pm....      pm.....        pm.....        pm.....

e-------------------------------------------------------------|
b-------------------------------------------------------------|
g---9--9--------4--4----------7---7---------------------------|
d---9--9 (x13)--4--4-(x13)----7---7--(x5)---7---7-------------|
a---7--7--------2--2----------5---5--------- 7---7--(x5)------|
e--------------------------------------------5---5------------|
       pm....      pm.....        pm.....        pm.....
(in case you dont get it the first chord is played and the other 12 are palm muted every chord switch.

verse2 same as verse1
prechorus the same too
chorus

rap bridge


e-------------- -----------|
b--------------  ----------|
g-----9--99-9--  --6-66-6--|
d-----9--99-9--  --6-66-6--|
a-----7--77-7--  --4-44-4--|
e--------------  ----------|

e-------------- ------|
b--------------  -----|
g-----9--99-9--  --4--|
d-----9--99-9--  --4--|
a-----7--77-7--  --2--|
e--------------  -----|

chorus
Tap to rate this tab
# A B C D E F G H I J K L M N O P Q R S T U V W X Y Z