Song name
# A B C D E F G H I J K L M N O P Q R S T U V W X Y Z

Misc Television - Expedia Commercial tab

Song: Expedia Dot Com Commercial (Woot-woo, woot-woot-woo...)
Tabber: Ace
Tab Type: Guitar
Tuning: Standard (EADGBe)


Really simple song. Fun to play too.

e-----------------------------------------------------|
B-----------------------------------------------------|
G-----------------------------------------------------|
D-----------------------------------------------------|
A----------3-5-6-5-3----------------------------------|
E---333-5---------------------------------------------|

e-----------------------------------------------------|
B-----------------------------------------------------|
G-----------------------------------------------------|
D-----------------------------------------------------|
A----------3-5-6-5-3----------------------------------|
E---333-5---------------------------------------------|

Thats it. Play it higher to change it around if you want.
Tap to rate this tab
 
# A B C D E F G H I J K L M N O P Q R S T U V W X Y Z