Song name
# A B C D E F G H I J K L M N O P Q R S T U V W X Y Z

Misc Television - Coronation Street Theme tab

Help us improve GuitareTab! Take a short survey!
...CORONATION STREET... TV Theme
-----------------------.........

*from the TV Series 1960*


*INSTRUMENTAL*


*CAPO 1st FRET*

(Original Key: G#)


Verse 1:

    G  G7     Cmaj7    Am7
e|------------------------|
B|--0---------------------|
G|-------2-0--2-----0-----|
D|---------------2--------|
A|------------------------|
E|------------------------|

    F  F7      Bb      Bbmaj7
e|------------------------|
B|------------------------|
G|--2----0-----0----------|
D|----------3-----0-3-----|
A|------------------------|
E|------------------------|

   Ebmaj7  Eb7     D7
e|------------------------|
B|-----------------3------|
G|--0--------3--0---------|
D|------------------------|
A|------------------------|
E|------------------------|

        G    Fdim, D7 (n.c)
e|------------------------|
B|---------3--------------|
G|--3-3-4-----------------|
D|------------------------|
A|------------------------|
E|------------------------|

   (D7)
e|---------------|
B|-------1-------|
G|--2-4-----0-2--|
D|---------------|
A|---------------|
E|---------------|

Verse 2:

    G  G7     Cmaj7    Am7
e|------------------------|
B|--0---------------------|
G|-------2-0--2-----0-----|
D|---------------2--------|
A|------------------------|
E|------------------------|

    F  F7      Bb      Bbmaj7
e|------------------------|
B|------------------------|
G|--2----0-----0----------|
D|----------3-----0-3-----|
A|------------------------|
E|------------------------|

   Ebmaj7  Eb7     D7
e|------------------------|
B|-----------------3------|
G|--0--------3--0---------|
D|------------------------|
A|------------------------|
E|------------------------|

        G    Fdim, D7 (n.c)
e|------------------------|
B|---------3--------------|
G|--3-3-4-----------------|
D|------------------------|
A|------------------------|
E|------------------------|

   (D7)          G
e|------------------|
B|-------1----------|
G|--2-4-----0-2--0--|
D|------------------|
A|------------------|
E|------------------|


CHORD DIAGRAMS:
---------------

   G       G7     Cmaj7    Am7     F       F7

 EADGBE  EADGBE  EADGBE  EADGBE  EADGBE  EADGBE
 320003  323000  x32000  x02013  133211  131211

   Bb    Bbmaj7  Ebmaj7    Eb7     D7     Fdim

 EADGBE  EADGBE  EADGBE  EADGBE  EADGBE  EADGBE
 x13331  x13231  x68786  x68686  xx0212  xx0101
                                    ____
           _             __   __   |  __|  __    __
          | |   _   _   |  \ /  |  | |__   \ \  / /
  _____   | |  | | | |  |       |  |__  |   \ \/ /
 |  ___|  | |  | | | |  | |\_/| |   __| |    \  /
 | |= =   | |  | |_| |  | | = | |  |____|     | |
 | |      | |  |_____|  | |   | |   = = =     | |
 | |___   | |   = = =   | |   | |             | |
 |_____|  | |           |_|   |_|             | |
  = = =   | |_____       =     =    Tabbed by |_|
          |_______|  Joel from cLuMsY, 2008    =
           = = = =      (clumsyband@hotmail.com)
Related for Coronation Street Theme tab