Guitaretab - guitar tabs
Song name
# A B C D E F G H I J K L M N O P Q R S T U V W X Y Z

Misc Television - Vonage Theme tab

Vonage Theme Music

This is catchy theme music, and I just had to tab it. It's in order and according
to beat for the Vonage Commercials. 

---------------------------------------------------------------------------------
Intro


   1 + 2 + 3 + 4 +   1 + 2 + 3 + 4 +   1 + 2 + 3 + 4 +   1 + 2 + 3 + 4 +
E|-----------------|-----------------|-----------------|-----------------|
B|-----------------|-----------------|-----------------|-----------------|
G|-----------------|-----------------|-----------------|-----------------|
D|---------2-2-4-4-|-5-5-4-4-2-2-----|---------2-2-4-4-|-5-5-4-4-2-2-----|
A|-0-0-4-4---------|-------------4-4-|-0-0-4-4---------|-------------4-4-|
E|-----------------|-----------------|-----------------|-----------------|



   1 + 2 + 3 + 4 +   1 + 2 + 3 + 4 +   1 + 2 + 3 + 4 +   1 + 2 + 3 + 4 +
E|-----------------|-----------------|-----------------|-----------------|
B|-----------------|-----------------|-----------------|-----------------|
G|-----------------|-----------------|-----------------|-----------------|
D|---------2-2-4-4-|-5-5-4-4-2-2-----|---------2-2-4-4-|-5-5-4-4-2-2-----|
A|-0-0-4-4---------|-------------4-4-|-0-0-4-4---------|-------------4-4-|
E|-----------------|-----------------|-----------------|-----------------|


Whoo-hooo! Whoo-hoo-hooo! Whoo-hooo! Whoo-hoo-hooo!


   1 + 2 + 3 + 4 +   1 + 2 + 3 + 4 +   1 + 2 + 3 + 4 +   1 + 2 + 3 + 4 +
E|-----------------|-----------------|-----------------|-----------------|
B|-----------------|-----------------|-----------------|-----------------|
G|-----------------|-----------------|-----------------|-----------------|
D|---------2-2-4-4-|-5-5-4-4-2-2-----|---------2-2-4-4-|-5-5-4-4-2-2-----|
A|-0-0-4-4---------|-------------4-4-|-0-0-4-4---------|-------------4-4-|
E|-----------------|-----------------|-----------------|-----------------|



   1 + 2 + 3 + 4 +   1 + 2 + 3 + 4 +   1 + 2 + 3 + 4 +   1 + 2 + 3 + 4 +
E|-----------------|-----------------|-----------------|-----------------|
B|-----------------|-----------------|-----------------|-----------------|
G|---------2-2-4-4-|-5-5-4-4-2-2-----|-----------------|-----------------|
D|-0-0-4-4---------|-------------4-4-|---------2-2-4-4-|-5-5-4-4-2-2-----|
A|-----------------|-----------------|-0-0-4-4---------|-------------4-4-|
E|-----------------|-----------------|-----------------|-----------------|


Hoo-hoo! Hoo-hoo! Whoo-hooo! Whoo-hoo-hooo!

[ Tab from: http://www.guitaretab.com/m/misc-television/67205.html ]
   1 + 2 + 3 + 4 +   1 + 2 + 3 + 4 +   1 + 2 + 3 + 4 +   1 + 2 + 3 + 4 +
E|-----------------|-----------------|-----------------|-----------------|
B|-----------------|-----------------|-----------------|-----------------|
G|-----------------|-----------------|-----------------|-----------------|
D|-2-2-4-4-5-5-4-4-|-2-2-0-0---------|---------2-2-4-4-|-5-5-4-4-2-2-----|
A|-----------------|---------4-4-2-2-|-0-0-4-4---------|-------------4-4-|
E|-----------------|-----------------|-----------------|-----------------|



   1 + 2 + 3 + 4 +   1 + 2 + 3 + 4 +   1 + 2 + 3 + 4 +   1 + 2 + 3 + 4 +
E|-----------------|-----------------|-----------------|-----------------|
B|-----------------|-----------------|-----------------|-----------------|
G|-----------------|-----------------|-----------------|-----------------|
D|-----------------|-----------------|-----------------|-----------------|
A|-0---------------|-----------------|-0---------------|-----------------|
E|-----------------|-----------------|-----------------|-----0---2---4---|



   1 + 2 + 3 + 4 +   1 + 2 + 3 + 4 +   1 + 2 + 3 + 4 +   1 + 2 + 3 + 4 +
E|-----------------|-----------------|-----------------|-----------------|
B|-----------------|-----------------|-----------------|-----------------|
G|-----------------|-----------------|-----------------|-----------------|
D|---------2-2-4-4-|-5-5-4-4-2-2-----|---------2-2-4-4-|-5-5-4-4-2-2-----|
A|-0-0-4-4---------|-------------4-4-|-0-0-4-4---------|-------------4-4-|
E|-----------------|-----------------|-----------------|-----------------|



   1 + 2 + 3 + 4 +   1 + 2 + 3 + 4 +   1 + 2 + 3 + 4 +   1 + 2 + 3 + 4 +
E|-----------------|-----------------|-----------------|-----------------|
B|-----------------|-----------------|-----------------|-----------------|
G|---------2-2-4-4-|-5-5-4-4-2-2-----|-----------------|-----------------|
D|-0-0-4-4---------|-------------4-4-|---------2-2-4-4-|-5-5-4-4-2-2-----|
A|-----------------|-----------------|-0-0-4-4---------|-------------4-4-|
E|-----------------|-----------------|-----------------|-----------------|



   1 + 2 + 3 + 4 +   1 + 2 + 3 + 4 +   1 + 2 + 3 + 4 +   1 + 2 + 3 + 4 +
E|-----------------|-----------------|-----------------|-----------------|
B|-----------------|-----------------|-----------------|-----------------|
G|-----------------|-----------------|-----------------|-----------------|
D|-2-2-4-4-5-5-4-4-|-2-2-0-0---------|---------2-2-4-4-|-5-5-4-4-2-2-----|
A|-----------------|---------4-4-2-2-|-0-0-4-4---------|-------------4-4-|
E|-----------------|-----------------|-----------------|-----------------|


End On


   1 + 2 + 3 + 4 +
E|-----------------|
B|-----------------|
G|-----------------|
D|-----------------|
A|-0---------------|
E|-----------------|
Related for Vonage Theme tab
Advertisement will be closed in 10 seconds