Song name
# A B C D E F G H I J K L M N O P Q R S T U V W X Y Z

Misc Television - Green Acres Theme tab

Tabbed by: SethMegadefan
email: sethmegadefan@hotmail.com
Tuning: Standard

I didn't tab out the rhythm, but if you're willing to look up the tab, chances are you
know the song and rhythm anyway, so as long as you're familiar with the song itself you
should be fine. I couldn't find a decent guitar tab anywhere on the net, so I took the
bass part from on this site and figured out the entire guitar part by ear. Enjoy!

Main part
|---------------------------|---------------------------|
|---------------------------|---------------------------|
|-------------------2---2---|---------------------------|
|------2-4---2--------------|------2-4---2--------------|
|0-4------------------------|0-4----------------2---2---|
|---------------------------|---------------------------|

|--------------------------------|----------------------------|
|--------------------------------|----------------------------|
|----------------------2-4---2---|--------------------2---2---|
|------2-4---2---0-4-------------|2-----0---------------------|
|0-4-----------------------------|--4-----2---0---------------|
|--------------------------------|----------------------------|

Lead guitar part
|--------------------------------|-------------------------------|
|--------------------------------|-------------------------------|
|2-------2-----------------------|1------1-----------2-2---------|
|----------2---------2-2---------|---------2-0-------------------|
|------------4-0-----------------|-------------2-0---------------|
|----------------4---------------|-------------------------------|

|--------------------------------|-----------------|-----------------|
|--------------------------------|-----------------|5---5---5-5------|
|2-------2-------------2---------|-----------------|--6---6----7-6-4-|
|----------2-----0---4-----------|2---2---2-2------|-----------------|
|------------4-0-----------------|--4---4----5-4-2-|-----------------|
|--------------------------------|-----------------|-----------------|

Now repeat the main part and there you have it! Rock on!
Tap to rate this tab
 
# A B C D E F G H I J K L M N O P Q R S T U V W X Y Z