Song name
# A B C D E F G H I J K L M N O P Q R S T U V W X Y Z

Misc Television - Runza Theme tab

-------------------------------------------------------------------------------
			     Runza Commercial
-------------------------------------------------------------------------------

Tabbed by: browndog221
Email: browndog221@yahoo.com

I was bored today!

Tuning: Standard

e|--------------------------|
B|--------------------------|
G|-5--5-5-------7--7-7------|
D|-5--5-5--555--7--7-7-777--|
A|-3--3-3--555--5--5-5-777--|
E|---------333---------555--|


e|--------------------------|
B|--------------------------|
G|-5--5-5-------77-5--------|
D|-5--5-5--555--77-5-7------|
A|-3--3-3--555--55-3-7------|
E|---------333-------5------|
Tap to rate this tab
# A B C D E F G H I J K L M N O P Q R S T U V W X Y Z