Song name
# A B C D E F G H I J K L M N O P Q R S T U V W X Y Z

Misc Television - Cops Theme tab

Misc Television
Cops Theme
Tuning: Standard
Transcribed by Soch Hean

Guitar Riff:
|----------------------------------------------------------|
|----------------------------------------------------------|
|----------------------------------------------------------|
|----------------------------------6--------6-4---4-6------|
|----2-2-2-2-2-2-2-2------------------6---------6----------|
|--------------------2-2-4-x-4-----------------------------|
  PM|-------------------------------------------------|

|----------------------------------------------------------|
|----------------------------------------------------------|
|----------------------------------------------------------|
|-----------------------------------6-------6-4---4-6------|
|------2-2-2-2-2-2-2-2-----------------6--------6----------|
|----4-----------------2---4-------------------------------|
  PM|-------------------------------------------------|

Repeat Riff again

They play this throughout the theme:
|---------------------------|
|---------------------------|
|---------------------------|
|------6-------6-4---4-6----|
|---------6--------6--------|
|---------------------------|
   PM|--------------------|

Legend:
PM - palm mute
Tap to rate this tab
 
# A B C D E F G H I J K L M N O P Q R S T U V W X Y Z