Song name
# A B C D E F G H I J K L M N O P Q R S T U V W X Y Z

Misc Television - Smoking Room Theme tab

Tabbed by:Emma Knight
Email:

Tuning:

e|---------------------------------------------------------------------------|
B|---------------------------------------------------------------------------|
G|---------------------------------------------------------------------------|
D|0---0---0-----------------0---0---0----------------------------------------|
A|--0---0---3-1---1-3---1-3---0---0---3-1---1-3---1-3------------------------|
E|--------------1-----3-------------------1-----3----------------------------|

e|--------------------------------------------------------------------------|
B|-----1--------------------1--------------------1--------------------------|
G|---2----------------0---2----------------0---2-------------------0--------|
D|-0------3-0-------2---0------3-0-------2---0-----3-0-----0-3---2---0------|
A|------------3-1-3----------------3-1-3---------------3-1-----3------------|
E|--------------------------------------------------------------------------|
Tap to rate this tab
 
# A B C D E F G H I J K L M N O P Q R S T U V W X Y Z