Song name
# A B C D E F G H I J K L M N O P Q R S T U V W X Y Z

Misc Television - Colbert Report Theme tab

----------------------------------------------------------------------------
			   Colbert Report Theme - The Colbert Report
----------------------------------------------------------------------------

Intro:

This is like a "solo" way to do the intro.

|-------------------------------|
|------------10/12--------------|
|--14----14---------9-----------|
|-----14------------------------|
|-------------------------------|
|-------------------------------|

Alternate intro:

This is an alternate way to do the intro. In my opinion, the intro above sounds more exact.

|-----------------|
|-----------------|
|-----------------|
|-----------------|
|-0-----0--2------|
|----0--------0---|


To sound like the theme, do a pickslide when you are going to the Chorus.


Chorus:

|---------------------------------|------------------------------------|
|---------------------------------|------------------------------------|
|---------------------------------|------------------------------------|
|----1---2---1-------1---2---1---|-------------------------------------|
|-2----2---2---2--2----2---2---2-|-------------------------------------|
|---------------------------------|-0--4p0-5p0-4p0--0--4p0-5p0-4p0-----|


Repeat the chorus 3 times, then come back to the intro.

Intro
Chorus
Intro

| PM palm mute note
| /  slide up
| \  slide down
| h  hammer-on
| p  pull-off
| ~  vibrato
| +  harmonic
| x  Mute note
=============================================================
Tap to rate this tab
# A B C D E F G H I J K L M N O P Q R S T U V W X Y Z