Song name
# A B C D E F G H I J K L M N O P Q R S T U V W X Y Z

Misc Television - Ren And Stimpy Theme tab

  e[---5--5------5--5--5------5--5------5--5--5--------|
  b[---7--7------7--7--7------7--7------7--7--7--------|
  g[---6--6------6--6--6------6--6------6--6--6--------|
  d[---7--7------7--7--7------7--7------7--7--7--------|
 Xa[---------------------------------------------------|
 Xe[---------------------------------------------------|


  e[---5--5------5--5--5------5--5------5--5--5--------|
  b[---5--5------5--5--5------7--7------7--7--7--------|
  g[---5--5------5--5--5------6--6------6--6--6--------|
  d[---7--7------7--7--7------7--7------7--7--7--------|
 Xa[---5--5------5--5--5-------------------------------|
 Xe[---5--5------5--5--5-------------------------------|


  e[---7--7------7--7--7------5--5------5--5--5--------|
  b[---7--7------7--7--7------7--7------7--7--7--------|
  g[---7--7------7--7--7------6--6------6--6--6--------|
  d[---9--9------9--9--9------7--7------7--7--7--------|
 Xa[---7--7------7--7--7-------------------------------|
 Xe[---7--7------7--7--7-------------------------------|


       SOLO:

 e[------12h14--17-17-17--15--14/12--15p14--12h14p12-------12----------------|
 b[12h13---------------------------------------------13/15----13-13-13/12----|
 g[-----------------------------------------------------------------------14-|
 d[--------------------------------------------------------------------------|
 a[--------------------------------------------------------------------------|
 e[--------------------------------------------------------------------------|


  e[13-13-13/12----13-13-13-13-12-----------------------|
  b[------------14--------------------------------------|
  g[------------------------------14-12-----------------|
  d[------------------------------------14-12-10-10-----|
  a[----------------------------------------------------|
  e[----------------------------------------------------|


  e[12-12-10-10-9-9-7-7-5-5-3-3-2-2--0--4--5-5--2--2-1-0-2-4-5---11-------17-|
  b[-------------------------------------------------------------12-------18-|
  g[-------------------------------------------------------------11-------17-|
 Xd[-------------------------------------------------------------------------|
 Xa[-------------------------------------------------------------------------|
 Xe[-------------------------------------------------------------------------|


       END OF SONG.
Tap to rate this tab
 
# A B C D E F G H I J K L M N O P Q R S T U V W X Y Z