Song name
# A B C D E F G H I J K L M N O P Q R S T U V W X Y Z

Misc Television - My Name Is Earl Theme tab

                                 My Name Is Earl

Intro:
 "You know that guy that does nothing but bad things
 and wonders why his life sucks..."
|-7---6--5--4--3-------------------------------|
|-------------------7--6-5-4-3---5--5--5p3---5-|
|------------------------------4-----------4---|
|----------------------------------------------|
|----------------------------------------------|
|----------------------------------------------|

"Well, that was me. I'm just trying to be a better person."
|-7---6--5--4--3-------------------------------|
|-------------------7--6-5-4-3---5--5--5p3---5-|
|------------------------------4-----------4---|
|----------------------------------------------|
|----------------------------------------------|
|----------------------------------------------|

"My Name Is Earl"
|----------------0--|
|----------------0--|
|----------------1--|
|----------------2--|
|----------------2--|
|----------------0--|
Tap to rate this tab
# A B C D E F G H I J K L M N O P Q R S T U V W X Y Z