Song name
# A B C D E F G H I J K L M N O P Q R S T U V W X Y Z

Misc Television - Hawaii Five-o Theme tab

                               Hawaii Five-O Theme

(Done In G Minor)

 Guitar I
|------------------------------------|-----------------------------------|
|------------------------------------|-----------------------------------|
|------------------------------------|----------------0-------0-0------0-|
|--------0---------------------------|--------0-------------------3-0----|
|-----1------3------------------1----|-----1------3----------------------|
|-3-3------------3--------3-3-1----3-|-3-3-------------------------------|
|                                                                        |
|                                                                        |
|Guitar II                                                               |
|------------------------------------|----------------3-------3-3------3-|
|--------3---------------------------|--------3-------------------6-3----|
|-----3------5------------------3----|-----3------5----------------------|
|-5-5------------5--------5-5-3----5-|-5-5-------------------------------|
|------------------------------------|-----------------------------------|
|------------------------------------|-----------------------------------|
Tap to rate this tab
# A B C D E F G H I J K L M N O P Q R S T U V W X Y Z