Song name
# A B C D E F G H I J K L M N O P Q R S T U V W X Y Z

Misc Television - Extreme Makeover Home Edition Theme tab

this is just one of the things that they play during that extreme makeover:home edition 
i thaught it sounded sweet so i tabbed it.
you kind of need to play this all kind of fast

-------------------5-------5-------5-------5---|
---2---3---4---5-------5-------4-------4-------|
-----------------------------------------------|
-----------------------------------------------|
-----------------------------------------------|
-----------------------------------------------|

-------5-------5---------------------------5---|
---3-------3-------5---3---2---3---4---5-------|
-----------------------------------------------|
-----------------------------------------------|
-----------------------------------------------|
-----------------------------------------------|

-------5-------5-------5-------5-------5-------|
---5-------4-------4-------3-------3-------5---|
-----------------------------------------------|
-----------------------------------------------|
-----------------------------------------------|
-----------------------------------------------|

-----------------------------------------------|
---3---2---2-----------------------------------|
-----------------------------------------------|
-----------------------------------------------|
-----------------------------------------------|
-----------------------------------------------|

and that is it
Tap to rate this tab
# A B C D E F G H I J K L M N O P Q R S T U V W X Y Z