Song name
# A B C D E F G H I J K L M N O P Q R S T U V W X Y Z

Misc Television - Volkswagen Commercial tab

-------------------------------------------------------------------------------
			  Nigel Tufnel VW Ad
-------------------------------------------------------------------------------

Tabbed by: Nick Dupont (sikk_nick)
Email: sikk_nick@yahoo.com

OK now I am done with the VW commercials.



Tuning: Standard--[E,A,D,G,B,e]

e|---------------------------------------------8p7--------|
B|-8h10~~~----------------------------------------10p8~~--|
G|------------7h8p7--5-------5--7--5~~~---x---------------|
D|------------------(7)--7--(7)----------(5)--------------|
A|---------------------------------------(5)--------------|
E|--------------------------------------------------------|

                                               +
e|--------------------7-8-8/10--10-------------10-~~~--|
B|--7h8-7h8p7p6--8-/10-----------|--------------9-~~~--|
G|------------------------------=/=--------------------|
D|------------------------------=/=--------------------|
A|------------------------------=/=-tremolo------------|
E|------------------------------=/=--pick--------------|


e|-17~~17-17-17-17~---17----------------17--------|
B|----x---x--x------17--17-x-17-x-17--17--x17-17--|
G|------------------------------------------------|
D|------------------------------------------------|
A|------------------------------------------------|
E|------------------------------------------------|


e|--12-15-14-13-----------------------------------------|
B|---------------16-19-18-17--15-18-17-16--14-17-16-15--|
G|------------------------------------------------------|
D|------------------------------------------------------|
A|------------------------------------------------------|
E|------------------------------------------------------|

e|------------------------------------------------------|
B|--13-16-15-14--12-15-14-13--11-14-13-12---------------|
G|-----------------------------------------14p12\-------|
D|------------------------------------------------------|
A|------------------------------------------------------|
E|------------------------------------------------------|


e|--12-15-14-13-----------------------------------------|
B|---------------16-19-18-17--15-18-17-16--14-17-16-15--|
G|------------------------------------------------------|
D|-“This amplifier has airbags.”------------------------|
A|------------------------------------------------------|
E|------------------------------------------------------|

e|-------****falls off car------------------------------|
B|--xxxx\\\\--------------------------------------------|
G|--xxxx\\\\--------------------------------------------|
D|--xxxx\\\\--------------------------------------------|
A|-----------------------------(“I’m alright.”)---------|
E|----pick scrape---------------------------------------|


| /  slide up
| \  slide down
| h  hammer-on
| p  pull-off
| ~  vibrato
| +  harmonic
| x  Mute note


  |    tremolo picking
 =/=
 =/=
 =/=


===============================================================================

Tap to rate this tab
 
# A B C D E F G H I J K L M N O P Q R S T U V W X Y Z