Song name
# A B C D E F G H I J K L M N O P Q R S T U V W X Y Z

Misc Television - Coors Commercial tab

-------------------------------------------------------------------------------
			     I Love Twins – Coors Commercial
-------------------------------------------------------------------------------
Tabbed by: Dmw
Email: dmw3293@yahoo.com

Tuning:

Intro
e|-----------------|
B|-----------------|
G|--------2~-------|
D|---2-2—-0~-------|
A|---2-2—-0~-------|
D|---2-2—-0~-------|

e|---------------------------------------------------------------------------|
B|---------------------------------------------------------------------------|
G|----------------------2--22---------2--22---------4--444--4--4-------------|
D|--------2--22--2-2----2--22--2-2----2--22--2-2----4--444--4--4--0—-2~~-----|
A|--------2--22--2-2----0--00--2-2----0--00--2-2----2--222--2--2--0—-2~~-----|
D|--------2--22--2-2-----------2-2-----------2-2------------------0—-2~~-----|
          .  ..  . .    .  ..  . .    .  ..  . .    .  ...  .  .
e|---------------------------------------------------------------------------|
B|---------------------------------------------------------------------------|
G|---------------------------------------------------------------------------|
D|-----7-7-7-7--9-9-9-9----2-------------------------------------------------|
A|-----7-7-7-7--9-9-9-9----2-------------------------------------------------|
D|-----7-7-7-7--9-9-9-9----2-------------------------------------------------|

There is a segment that I haven’t done yet during the “I love football on tv…” Ill get 
done and put it up.
===============================================================================
Tap to rate this tab
# A B C D E F G H I J K L M N O P Q R S T U V W X Y Z