Song name
# A B C D E F G H I J K L M N O P Q R S T U V W X Y Z

Misc Television - Match Of The Day Theme tab

This is my version of the match of the day theme. you all know it...

by adam gilbey from middlesbrough england

E------------------------------------------------------------|
B------0---3--0-0-0---0-0---1---3----0------0--1-------------|
G----0----------------------------------2--------------------|
D--0-------------------------------------------------------2-|
A--------------------------------------------------0---4-----|
E------------------------------------------------------------|

E------------------------------------------------------------|
B-1--------------0-1---------0------0--3--0--0--0--0--0---1--|
G----2-2-2---2-2------2-0-2-------0--------------------------|
D-------------------------------0----------------------------|
A------------------------------------------------------------|
E------------------------------------------------------------|

E---------------0---0-2---3-3-2-0-3-----0--------------------|
B--3---0--1--3-----------------------3-3----3--1--0----------|
G-----------------------------------------------------2---0--|
D------------------------------------------------------------|
A------------------------------------------------------------|
E------------------------------------------------------------|

any questions, email me at gilbey_69@hotmail.co.uk

feel free to comment
Tap to rate this tab
# A B C D E F G H I J K L M N O P Q R S T U V W X Y Z