Song name
# A B C D E F G H I J K L M N O P Q R S T U V W X Y Z

Misc Television - Bad Lads Army Theme tab

TV show: Bad Lad's Army
Tuning: Standard (EADGBE)

MAIN RIFF 1 (played in the opening theme):

7-7-7-6-8-7-3-0|
---------------|
---------------|
---------------|
---------------|
---------------|

MAIN RIFF 2 (played in the closing credits):

---------------------------|
---------------------------|
---------------------------|
---------------------------|
---------------------------|
0-0-2-3-0-2-3-3-2-3-2-3-2-0|

MAIN RIFF 3 (played in the more comical scenes):

-----------------------|
-----------------------|
-----------------------|
-----------------------|
------2-4-2-------2-4-2|
0-2-4-------0-2-4------|

-----------------------|
-----------------------|
-----------------------|
------2-4-2-------2-4-2|
0-2-4-------0-2-4------|
-----------------------|

Bad Lad's Army is the funniest programme
ever in the history of TV!

Enjoy! kingtommyboy@hotmail.com
Tap to rate this tab
 
# A B C D E F G H I J K L M N O P Q R S T U V W X Y Z