Song name
# A B C D E F G H I J K L M N O P Q R S T U V W X Y Z

Misc Television - You Dont Always Die From Tobacco tab

Help us improve GuitareTab! Take a short survey!
This was graciously tabbed for me by lagunasunrise. Thank you!

----Intro----
e|----------|
B|----------|
G|----------|
D|----------|
A|-0-2-4----|
E|----------|




Verse:
e|-------------------------------------------3----3--------------------|
B|---3----3----3----3------------------------0----0--------------------|
G|---2----2----2----2----2----2----2----2----0----0----2----2----------|
D|-0-0--0-0--0-0--0-0----2----2----2----2----0----0----2----2----------|
A|---------------------0-0--0-0--0-0--0-0----2----2--0-0--0-0----------|
E|-----------------------------------------3-3--3-3--------------------|


e|--------------------|
B|---3----3----3----3-|
G|---2----2----2----2-|
D|-0-0--0-0--0-0--0-0-|
A|--------------------|
E|--------------------|
Related for You Dont Always Die From Tobacco tab