Song name
# A B C D E F G H I J K L M N O P Q R S T U V W X Y Z

Misc Television - Men Behaving Badly Theme tab

I kept getting this stuck in my head so I decided to tab it

Main Theme
e----------------------------------------------|
B-0h3-7-5-3-5-3-2-3-2-0-0h3-7-5-3-5-3-2-10-8-7-|
G----------------------------------------------|
D----------------------------------------------|
A----------------------------------------------|
E----------------------------------------------|

e----------------------------------|
B-0h3-7-5-3-5-3-2-3-2-0-3--2--2-0--|
G------------------------0--3------|
D----------------------------------|
A----------------------------------|
E----------------------------------|

Middle
e------------------------------------------------------------------|
B-0h3h0-7-5-3-2--8-7-5-3--2-3-5-0--10-8-7-5--2-3-5-7-9-10-12/13/12-|
G------------------------------------------------------------------|
D------------------------------------------------------------------|
A------------------------------------------------------------------|
E------------------------------------------------------------------|

Ok, This sounds right but play around with the middle part if it doesnt
sound exact
Tap to rate this tab
# A B C D E F G H I J K L M N O P Q R S T U V W X Y Z