Song name
# A B C D E F G H I J K L M N O P Q R S T U V W X Y Z

Misc Television - Eurovision Theme tab

Eurovision Theme
Tabbed by:Madis
E-mail madis1995@hot.ee

e-------0-|3-1-0-0|-1-3-1-0-1-3-----0----------------------------------------|
b--1-1-3-1|-------|------------3-1-3-3---------------------------------------|
g-0-------|-------|----------------------------------------------------------|
d----------------------------------------------------------------------------|
a----------------------------------------------------------------------------|
e----------------------------------------------------------------------------|

e-------0-3-1-0-0-1-3-0-1----------------------------------------------------|
b---1-1-3-1----------------3-1-1---------------------------------------------|
g-0--------------------------------------------------------------------------|
d----------------------------------------------------------------------------|
a----------------------------------------------------------------------------|
e----------------------------------------------------------------------------|

It's my 1st tab but I'm 100% sure that it is 100% correct
Tap to rate this tab
 
# A B C D E F G H I J K L M N O P Q R S T U V W X Y Z