Song name
# A B C D E F G H I J K L M N O P Q R S T U V W X Y Z

Misc Television - Ritz Bitz Theme tab

ritz bitz (some people say it is
the gadget theme)
distortion sounds good with this
e-----------------------|
b-----------------------|
g-----------------------|
d-----------------------|
a---------2-2--1-1--0-0-|
e-0-2-3-5--3----2----1--|

e--------------------------|
b--------------------------|
g--------------------------| you can move up strings with
d-------------2------------| this
a---------2-2---5-2---2--5-|
e-0-2-3-5--3--------3------|
Tap to rate this tab
 
# A B C D E F G H I J K L M N O P Q R S T U V W X Y Z