Song name
# A B C D E F G H I J K L M N O P Q R S T U V W X Y Z

Misc Television - The Young And The Restless Theme tab

The intrp to the Soap Opera "The Young and the Restless"





e|-5-5-5-5-5-5-5-5---|
B|-9-9-9-9-7-7-7-7---|
G|-------------------|
D|-------------------|
A|-------------------|
E|-------------------|

e|-5-5-5-5-5-5-5-5---|
B|-9-9-9-9-7-7-7-7---|
G|-------------------|
D|-------------------|
A|-------------------|
E|-------------------|

e|-5-5-5-5-5-5-5-5---|
B|-9-9-9-9-7-7-7-7---|
G|-------------------|
D|-------------------|
A|-------------------|
E|-------------------|

e|-5-5-5-5-5-5-5-5---|
B|-9-9-9-9-7-7-7-7---|
G|-------------------|
D|-------------------|
A|-------------------|
E|-------------------|


Repeat on and on
Tap to rate this tab
# A B C D E F G H I J K L M N O P Q R S T U V W X Y Z