Song name
# A B C D E F G H I J K L M N O P Q R S T U V W X Y Z

Misc Television - Iphone Theme tab

Chords used:

     Ab     Db
e|--------------------------|
B|-----------2--------------|
G|----1------1--------------|
D|----1------3--------------|
A|----3------4--------------|
E|----4---------------------|

 
Melody:


   Ab             Db
e|---------------------------------------------------------------------------|
B|-13-11-9-------9----11--13-11-9------9-------------------------------------|
G|---------8-10----8--------------8-10---------------------------------------|
D|---------------------------------------------------------------------------|
A|---------------------------------------------------------------------------|
E|---------------------------------------------------------------------------|

       Ab                             Db                      Ab  Db  Ab
e|---------------------------------------------------------------------------|
B|-11--14-13------11--14-13-------11--9--11--13--9------9-11--13--14--9------|
G|------------13-------------13--------------------8-10-------13--13--8------|
D|--------------------------------------------------------------------6------|
A|---------------------------------------------------------------------------|
E|---------------------------------------------------------------------------|
Tap to rate this tab
# A B C D E F G H I J K L M N O P Q R S T U V W X Y Z