Song name
# A B C D E F G H I J K L M N O P Q R S T U V W X Y Z

Misc Television - Grownups Theme tab

hey this is the theme for the BBc comedy grownups. its my first tab and it didnt take 
to make so if its not perfect don't be so harsh. and please rate.

e----------------------------------------------------------------------|
B----------------------------------------------------------------------|
G-----------7-----(Just strum around here on low volume, and then...)--|
D---5---3---7----------------------------------------------------------|
A---5---3---5----------------------------------------------------------|
E---3---1--------------------------------------------------------------|
                  (high volume, gain on six)

e----------------------------------------------------------------------|
B----------------------------------------------------------------------|
G------------7----------5-7--------------------------------------------|
D---5---33---7-------5h7-----------------------------------------------|
A---5---33---5---------------------------------------------------------|
E---3---11-------------------------------------------------------------|

e----------------------------------------------------------------------|
B----------------------------------------------------------------------|
G--------------12---12-12--14-14-12-9-7-9------------------------------|
D---5---33-----12---12-12--14-14-12-9-7-9---5--------------------------|
A---5---33----------------------------------5--------------------------|
E---3---11----------------------------------3--------------------------|

e----------------------------------------------------------------------|
B----------------------------------------------------------------------|
G----------------------------------------------------------------------|
D---3~~~~~~~~~~4-5-----------------------------------------------------|
A---3~~~~~~~~~~4-5-----------------------------------------------------|
E---1~~~~~~~~~~2-3-----------------------------------------------------|


And thats about it. make sure you keep power chords from the high volume part staccato.

~~~~~=repeated strumming
h=hammer on


Luv to Sheridan Smith!!!
Please rate
Tap to rate this tab
# A B C D E F G H I J K L M N O P Q R S T U V W X Y Z