Song name
# A B C D E F G H I J K L M N O P Q R S T U V W X Y Z

Misc Traditional - Morgen Kommt Der Wheinachtsmann tab

1)
e|--------------------------------------|
H|-----3-3-5-5-3--1-1-0-0---------------|
G|-0-0--------------------2---0---------|
D|--------------------------------------|
A|--------------------------------------|
E|--------------------------------------|
  Morgen kommt der Weihnachtsmann, kommt mit seinen Gaben.
e|--------------------------------------|
H|-3-3-1-1-0-0-----3-3-1-1-0-0----------|
G|-------------2---------------2--------|
D|--------------------------------------|
A|--------------------------------------|
E|--------------------------------------|
  Kinder, Vater und Mama, Auch sogar der Großpapa,
e|--------------------------------------|
H|-----3-3-5-5-3--1-1-0-0---------------|
G|-0-0--------------------2---0---------|
D|--------------------------------------|
A|--------------------------------------|
E|--------------------------------------|
  Alle, alle sind wir da, Warten dein mit Schmerzen.

2)  
  Bring' uns, lieber Weihnachtsmann,
  Bring' auch morgen, bringe
  Musketier und Grenadier,
  Zottelbär und Panthertier,
  Roß und Esel, Schaf und Stier,
  Lauter schöne Dinge.

3)
  Doch du weißt ja unsern Wunsch,
  Kennest unsere Herzen.
  Trommel, Pfeife und Gewehr,
  Fahn und Säbel und noch mehr,
  Ja ein ganzes Kriegesheer,
  Möcht’ ich gerne haben.

Tap to rate this tab
 
# A B C D E F G H I J K L M N O P Q R S T U V W X Y Z