Song name
# A B C D E F G H I J K L M N O P Q R S T U V W X Y Z

Misc Traditional - Polish National Anthem tab

The Polish National Anthem

|------------------------------------------------------------------|
|--1--2--4--4--4--1--6--4--2--1----------------4--2--2--1----------|
|-----------------------------------------3--3---------------------|
|------------------------------------------------------------------|
|------------------------------------------------------------------|
|------------------------------------------------------------------|


|------------------------------------------------------------------|
|--1--2--4--4--4--1--6--4--2--1----------------4-------------------|
|----------------------------------------3----3---------1---3--1---|
|------------------------------------------------------------------|
|------------------------------------------------------------------|
|------------------------------------------------------------------|


|------------------------------------------------------------------|
|------------------------------------------------------------------|
|--3--3--3--6--6--5--5--5--6--6--6--10--10--8--8--8----------------|
|------------------------------------------------------------------|
|------------------------------------------------------------------|
|------------------------------------------------------------------|


|------------------------------------------------------------------|
|------------------------------------------------------------------|
|--5--8--13--12--12--10--8--10--10--8--1--3--1---------------------|
|------------------------------------------------------------------|
|------------------------------------------------------------------|
|------------------------------------------------------------------|
Tap to rate this tab
 
# A B C D E F G H I J K L M N O P Q R S T U V W X Y Z