Song name
# A B C D E F G H I J K L M N O P Q R S T U V W X Y Z

Misc Traditional - Canadian National Anthe tab

e-----------|-------------|------------------------|   
B-----------|-------------|------------------------|   
G-4--7--7-5-|-2-4-5-7-9-2-|-4--6-6-7--9-1111-9-9-7-|   
D-2--5--5-5-|-0-2-3-5-7-0-|-2--4-4-5--7--9-9-7-7-5-|   
A---------3-|-------------|------------------------|   
E-----------|-------------|------------------------|

e----------------------------------------|
B----------------------------------------|
G--2-4-5-4-2--4-5-7-5-4--4-2-7-7-5-4-5-7-|
D--0-2-3-2-0--2-3-5-3-2--2-0-5-5-3-2-3-5-|
A----------------------------------------|
E----------------------------------------|

e-----------|---------|-----------------------------------------------|
B-----------|---------|-----------------------------------------------|
G--4-7--7-5-|5-5-9-9-2|-4-6-6-7--5-4-2-5--2-4--7-12-9--5-4-2-7-4---5--|
D--2-5--5-5-|3-3-7-7-0|-2-4-4-5--3-2-0-5--0-2--5-10-7--3-2-0-5-4---5--|
A---------3-|---------|----------------3-----------------------2---3--|
E-----------|---------|-----------------------------------------------|


hope you enjoy and please rate:)
Tap to rate this tab
# A B C D E F G H I J K L M N O P Q R S T U V W X Y Z