Song name
# A B C D E F G H I J K L M N O P Q R S T U V W X Y Z

Misc Traditional - Rakes Of Kildare tab

-------------------------------------------------------------------------------
			     RAKES OF KILDARE - Band Name
-------------------------------------------------------------------------------
Tabbed by: duhspesoboyz
Email: duhspesoboyz@yahoo.com

e|----------------0--2-323030-------------------0--2-320--------|
B|------------013------------30-------------013---------30------|
G|------22202------------------00------22202--------------02--2-|
D|2---2--------------------------2---2--------------------------|
A|--------------------------------------------------------------|
E|--------------------------------------------------------------|

e|5--505505--505753-030----5--505505--5357530-----5--50|
B|-----------------3---30--------------------30--------|
G|-----------------------00--------------------022-----|
D|-----------------------------------------------------|
A|-----------------------------------------------------|
E|-----------------------------------------------------|

e|5505--535753-030---------------02320---------|
B|------------3---30-0--------013-----30-------|
G|------------------0-20-22202----------022----|
D|----------------------2----------------------|
A|---------------------------------------------|
E|---------------------------------------------|
Tap to rate this tab
# A B C D E F G H I J K L M N O P Q R S T U V W X Y Z