Song name
# A B C D E F G H I J K L M N O P Q R S T U V W X Y Z

Misc Traditional - Alley Cat tab

----------------------------------------------------------------------------
			 Alley Cat - Traditional
----------------------------------------------------------------------------


Tabbed by: Dave S. 
Email: Prime-Prine@hotmail.com

Tuning: Standard

  
  E E E E Q   Q    Q   Q   Q   Q    Q   E E E E Q    Q   Q   H      H
e|-----0-2-5---4--|-2---1---0---1--|-2-----0---0-1--|-2---3---4----|------|
B|-1-2-----2---2--|-2---2---2---2--|-2-----2---2-2--|-2---2---3----|------|
G|----------------|----------------|----------------|--------------|------|
D|----------------|----------------|----------------|--------------|------|
A|---------0------|---------0------|-----0-------0--|---------2----|------|
E|----------------|-0--------------|-0-------0------|-0------------|-0----|


  Q   Q   Q   Q    Q   Q   Q  E E   E E Q   Q   Q    Q   E E Q     2x
e|-5---4---2---1--|-0---1---2----0-|---0-1---2---4--|-5-----5-------||
B|-3---3---3---3--|-3---3---3----3-|---3-3---3---3--|-2-----2-------||
G|----------------|----------------|----------------|---------------||
D|----------------|----------------|----------------|---------------||
A|-2--------------|-2----------2---|-----2----------|-0---0---0-----||
E|---------0------|---------0------|-0-------0------|---------------||


  Q  Q  E E Q    Q  Q E E Q    Q  Q  E E Q    Q  Q  E E Q    Q  Q
e|-5--7----7----|----2----2----|-5--7----7----|----0----0----|-5--7---|
B|-5--7----7----|-3--3----3----|-7--5----5----|-2--2----2----|-5--7---|
G|-5--7----7----|-2--2----2----|-7--6----6----|-2--2----2----|-6--8---|
D|-0--0--0---0--|-0--0--0---0--|--------------|--------------|-7--9---|
A|--------------|--------------|----0--0---0--|-0--0--0---0--|--------|
E|--------------|--------------|--------------|--------------|--------|


  Q  Q  Q  Q    Q  Q  Q   Q     Q  Q  Q  Q    E Q
e|----7-----7--|----------^7--|-----------0--|--------|
B|----7-----7--|----7-----^7--|-10--9--7-----|-4-3----|
G|----8-----8--|----8-----^8--|--8--8--8-----|-5-4----|
D|-9-----9--9--|----9-----^9--|--------------|--------|
A|----------9--|-9-----9------|--------------|--------|
E|-------------|--------------|-----------0--|--------|


  E E E E Q   Q    Q   Q   Q   Q    Q   E E E E Q    Q   Q   H      H
e|-----0-2-5---4--|-2---1---0---1--|-2-----0---0-1--|-2---3---4----|------|
B|-1-2-----2---2--|-2---2---2---2--|-2-----2---2-2--|-2---2---3----|------|
G|----------------|----------------|----------------|--------------|------|
D|----------------|----------------|----------------|--------------|------|
A|---------0------|---------0------|-----0-------0--|---------2----|------|
E|----------------|-0--------------|-0-------0------|-0------------|-0----|


  Q   Q   Q   Q    Q   Q   Q  E E   E E Q   Q   Q    Q   E E Q     
e|-5---4---2---1--|-0---1---2----0-|---0-1---2---4--|-5-----5-------||
B|-3---3---3---3--|-3---3---3----3-|---3-3---3---3--|-2-----2-------||
G|----------------|----------------|----------------|---------------||
D|----------------|----------------|----------------|---------------||
A|-2--------------|-2----------2---|-----2----------|-0---0---0-----||
E|---------0------|---------0------|-0-------0------|---------------||


| /  slide up
| \  slide down
| h  hammer-on
| p  pull-off
| ~  vibrato
| +  harmonic
| x  Mute note
===========================================================================
Tap to rate this tab
# A B C D E F G H I J K L M N O P Q R S T U V W X Y Z