Song name
# A B C D E F G H I J K L M N O P Q R S T U V W X Y Z

Misc Traditional - Wild Rover tab

Verse:

   G                                 C
e:----------------------------------------|
B:----------------------------------------|
G:--------------------------------------0-|
D:--0----0---2-0----0------4--4-2--4------|
A:---------------------0------------------|
E:----------------------------------------|
   I've been a Wild Rover for many a year,

   G                D                     G
e:--------------------------------------------|
B:--------------------------------------------|
G:--2----2--------2--0------------------------|
D:-------------4-------2----------4----2---0--|
A:-------------------------4---0--------------|
E:--------------------------------------------|
   I've spent all me money on whiskey and beer.

                                             C
e:---------------------------------------------|
B:---------------------------------------------|
G:-------------------------------------------0-|
D:--0---0---2---0--0------4----4----2--4-------|
A:---------------------0-----------------------|
E:---------------------------------------------|
    But now I'm returning with gold in great store

      G              D                    G
e:---------------------------------------------|
B:---------------------------------------------|
G:----2--2------2---0--------------------------|
D:---------4----------2------------4----2---0--|
A:------------------------4---0----------------|
E:---------------------------------------------|
   And I never will play the wild rover no more.

           D        D7   G                C
e:--------------------------------------------|
B:--------------------------------------------|
G:-----------------------------------------0--|
D:------0---2--2----------4--4----4-2--4------|
A:--4---------------4-0-----------------------|
E:--------------------------------------------|
   And it's no nay never, no nay never no more,

          G             C        G     D   C
e:-------------------------------------------|
B:-------------------------------------------|
G:------0--2---------------------------------|
D:-4-----------4---0----------------4--2---0-|
A:----------------------4--2---2--0----------|
E:-------------------------------------------|
   Will I play the Wild Rover, no never no more.
Tap to rate this tab
 
# A B C D E F G H I J K L M N O P Q R S T U V W X Y Z