Song name
# A B C D E F G H I J K L M N O P Q R S T U V W X Y Z

Misc Traditional - Chopsticks tab

-------------------------------------------------------------------------------
			     CHOPSTICKS-MISC. TRADITIONAL
-------------------------------------------------------------------------------
Tabbed by: Tomatrix6
Email: tomkinesis@comcast.net

Tuning: Standard (EADGBe)

Intro

e|--------------------------------------------------------------------------|
B|--------------------------------------------------------------------------|
G|12-12-12-12-12-12-12-12-12-12-12-12-16-16-16-16-16-16-17--17-17-16-14-----|
D|15-15-15-15-15-15-14-14-14-14-14-14-12-12-12-12-12-12---------------------|
A|------------------------------------------------------15--15-15-14-15-----|
E|--------------------------------------------------------------------------|

e|--------------------------------------------------------------------------|
B|--------------------------------------------------------------------------|
G|12-12-12-12-12-12-12-12-12-12-12-12-16-16-16-16-16-16-17--17-17-----------|
D|15-15-15-15-15-15-14-14-14-14-14-14-12-12-12-12-12-12---------------------|
A|------------------------------------------------------15--15-15-----------|
E|--------------------------------------------------------------------------|

(x2)
e|--------------------------------------------------------------------------|
B|17-15--13-12--10-8--8-8-10-8-6--6-6-8-6-5--5-5----------------------------|
G|17-16--14-12--10-9--9-9-10-9-7--7-7-9-7-5--5-5----------------------------|
D|--------------------------------------------------------------------------|
A|--------------------------------------------------------------------------|
E|--------------------------------------------------------------------------|

(x2)
e|--------------------------------------------------------------------------|
B|8-9-10-8-9-10-8-9-10-8-9-10-10-11-12-10-11-12-13--13-13-12-10-------------|
G|--------------------------------------------------------------------------|
D|--------------------------------------------------------------------------|
A|--------------------------------------------------------------------------|
E|--------------------------------------------------------------------------|

Outro
e|0--0--0-------------------------------------------------------------------|
B|13-13-13------------------------------------------------------------------|
G|--------------------------------------------------------------------------|
D|--------------------------------------------------------------------------|
A|--------------------------------------------------------------------------|
E|--------------------------------------------------------------------------|

| /  slide up
| \  slide down
| h  hammer-on
| p  pull-off
| ~  vibrato
| +  harmonic
| x  Mute note
===============================================================================
Tap to rate this tab
 
# A B C D E F G H I J K L M N O P Q R S T U V W X Y Z