Guitaretab - guitar tabs
Song name
# A B C D E F G H I J K L M N O P Q R S T U V W X Y Z

Misc Traditional - Greensleeves tab

Song Title: Greensleeves
Composed by: Traditional English
Arranged by: Rick Piche
Transcribed to tabalature by: Alex Polgar

This is a cool arpeggiated way to play the Classical song "Greensleeves"
My classical guitar teacher, Mr. Rick Piche, showed me this and arranged it,
himself, I take no credit for the arrangement it was all his work. 
If interested, you can find more of his work at: 
www.classroomguitar.org 
I highly recommend you buy his books he is a great teacher.
Without further ado here is Rick Piche's version of "Greensleeves"

Guitar 1 Standard Tuning (EADGBe)

3/4 time with a 1 beat pickup.

Freestroke let notes ring


   Q   E E E E E E   E E E E E E   E E E E E E   E E E E E E   E E E E E E 
E|---|-------0-----|-0-----2-0---|-------0-----|-------0-----|-------------|
B|---|-1---1---3---|-----1-------|-3---3---0---|-----0-----0-|-1-----------|
G|-2-|---2-------0-|---0-------0-|---0-------0-|---0-----2---|-----2---2---|
D|---|-------------|-------------|-------------|-------------|---2---2---2-|
A|---|-0-------2---|-3-----------|-2-----------|-------------|-0-----------|
E|---|-------------|-------------|-------------|-3-----------|-------------|
[ Tab from: http://www.guitaretab.com/m/misc-traditional/12528.html ]
   E E E E E E   E E E E E E   E E E E E E   E E E E E E   E E E E E E 
E|-------0-----|-------0-----|-------0-----|-------0-----|-0-----2-0---|
B|-----0-------|-0---0---0---|-----0---0---|-1---1---3---|-----1-------|
G|---2-----1-2-|---1-------1-|---1-------1-|---2-------0-|---0-------0-|
D|-3-----------|-2-----------|-------------|-------------|-------------|
A|-------------|-------------|-------------|-0-------2---|-3-----------|
E|-------------|-------------|-0-----------|-------------|-------------|
   
   E E E E E E   E E E E E E   E E E E Q   E E E E E E   E E E E E E 
E|-------0-----|-------0-----|-----------|-------------|-------------|
B|-3---3---0---|-----0-----0-|-1-----0---|-------0-----|-------0-1p0-|
G|---0-------0-|---0-----2---|---0-----2-|-1---1-----1-|-----2-------|
D|-------------|-------------|-----------|---2-----4---|---2---------|
A|-2-----------|-------------|-0---------|-------------|-0-----------|
E|-------------|-3-----------|-----3---1-|-0-----------|-------------|

   E E E E E E   E E E E E E   E E E E E E   E E E E E E   E E E E E E
E|-------------|-3-------3---|-3-----2-0---|-------0-----|-------0-----|
B|-------0-1-3-|-----1-------|-----1-------|-3---3---0---|-----0-----0-|
G|-----2-------|---0---0---0-|---0-------0-|---0-------0-|---0-----2---|
D|---2---------|-------------|-------------|-------------|-------------|
A|-0-----------|-3-----------|-3-----------|-2-----------|-------------|
E|-------------|-------------|-------------|-------------|-3-----------|

   E E E E E E   E E E E E E   E E E E E E   E E E E E E   E E E E E E
E|-------0-----|-------0-----|-------0-----|-------0-----|-3-------3---|
B|-1---1-----1-|-----0-------|-----0---0---|-----0---0---|-----1-------|
G|---2-----2---|---2-----1-2-|---1-------1-|---1-------1-|---0---0---0-|
D|-------------|-3-----------|-2-----------|-------------|-------------|
A|-0-----------|-------------|-------------|-------------|-3-----------|
E|-------------|-------------|-------------|-0-----------|-------------|

   E E E E E E   E E E E E E   E E E E E E   E E E E Q   E E E E E E
E|-3-----2-0---|-------0-----|-------0-----|-----------|-------------|
B|-----1-------|-3---3---0---|-----0-----0-|-1-----0---|-------0-----|
G|---0-------0-|---0-------0-|---0-----2---|---0-----2-|-1---1-----1-|
D|-------------|-------------|-------------|-----------|---2-----4---|
A|-3-----------|-2-----------|-------------|-0---------|-------------|
E|-------------|-------------|-3-----------|-----3---1-|-0-----------|

   rit. 
   E E E E E E   H.
E|-----------0-|-5--|
B|-------0-1---|-5--|
G|-----2-------|-5--|
D|---2---------|----|
A|-0-----------|-0--|
E|-------------|----|
Related for Greensleeves tab
Greensleeves chords by Misc Traditional