Song name
# A B C D E F G H I J K L M N O P Q R S T U V W X Y Z

Misc Traditional - Red Wing tab

-------------------------------------------------------------------------------
			       <><><>Red Wing<><><>
-------------------------------------------------------------------------------
Tabbed by:  G-Unot
Email: Oiledshot@yahoo.com

Tuning:EADGBe


riff 1

e|-------------------------3-3-----------------------------------------------|
B|--------------3----3-4-5-----5-3----3-5-3----------------------------------|
G|------------4-----------------------------4-5-4-------3-4-5----------------|
D|--0-5-5-5-5-------------------------------------5-5/7----------------------|
A|---------------------------------------------------------------------------|
E|---------------------------------------------------------------------------|


riff 2

e|------------------------3-3-------------------------------------3----------|
B|--------------3---3-4-5-----5-3---3-5-3-----------------------3------------|
G|------------4--------------------------4---4-5-4----2-4-2---4--------------|
D|--0-5-5-5-5--------------------------------------5--------5----------------|
A|---------------------------------------------------------------------------|
E|---------------------------------------------------------------------------|


riff 3

e|---3-2-1-----3-3-3-5-3-----------------------------------------------------|
B|---------3/5-----------5-3-------3-5-3---0-1-2-3---------------------------|
G|---------------------------4---4-------2---------4-------------------------|
D|---------------------------------------------------------------------------|
A|---------------------------------------------------------------------------|
E|---------------------------------------------------------------------------|


riff 4

e|--3-2-1-----3-3-3-5-3---------------------------------3--------------------|
B|--------3/5-----------5-3-------3-5-3---------------3----------------------|
G|--------------------------4---4-------2---2-4-2---4------------------------|
D|------------------------------------------------5--------------------------|
A|---------------------------------------------------------------------------|
E|---------------------------------------------------------------------------|

this is the entire song...in the correct order this tab is 100% correct i've played it 
times and i hope you enjoy.

if you think you may have found any mistakes in my tab e-mail me at oiledshot@yahoo.com 
i will contact you as soon as possible.
Tap to rate this tab
 
# A B C D E F G H I J K L M N O P Q R S T U V W X Y Z