Song name
# A B C D E F G H I J K L M N O P Q R S T U V W X Y Z

Misc Traditional - Turkey In The Straw tab

*Note*
-You don't have to slide if you don't want to I just put it on thier because it sounds a 
better.

-And this song only uses 2 strings (1st and 2nd or e and b)

7-5s3-5-3-2-----------0--------3-5-5s7-7-7-5--3-5--7-5-5-----|
-------------3-0-1--3----3-0-3-------------------------------|
-------------------------------------------------------------|  x2
-------------------------------------------------------------|
-------------------------------------------------------------|
-------------------------------------------------------------|


7-5s3-5-3-2---------0----------3-5s7---10-10-7-----------7-------------|
------------3-0-1-3----3-0-3----------------------8--10-----8---10-8---|
-----------------------------------------------------------------------|
-----------------------------------------------------------------------|
-----------------------------------------------------------------------|
-----------------------------------------------------------------------|


7-10-7-10-10-7-10-7-10--8-12-8-12-12-8-12-8-12-15-15-15s10-10-10 10-10-7-----|
-----------------------------------------------------------------------------|
-----------------------------------------------------------------------------|
-----------------------------------------------------------------------------|
-----------------------------------------------------------------------------|
-----------------------------------------------------------------------------|

10---7------7-10-12-10-7--------7----------------|
---10--------------------8--10-----8--10--8s0----|
-------------------------------------------------|   END
-------------------------------------------------|
-------------------------------------------------|
-------------------------------------------------|


And thats all! If i messed up anywhere just leave a comment.
Tap to rate this tab
# A B C D E F G H I J K L M N O P Q R S T U V W X Y Z