Song name
# A B C D E F G H I J K L M N O P Q R S T U V W X Y Z

Misc Traditional - Wildwood Flower tab

	     SONG NAME-Wildwood Flower  - Band Name-?
-------------------------------------------------------------------------------
Tabbed by:?
Email:?

Tuning:Standard or Key of A {capo on 2nd fret}

                                Repeat 1 time  [this verse]
e|------------------------------------------------------------------------------|
B|----------------------------1-------------------------------------------------|
G|----------------0---0h2-------------------------------------------------------|
D|------------2-----------------------2--3p2--2--0--0h2p0---------2-------------|
A|--------3-------------------------------------------------3-----------3-------|
E|------------------------------------------------------------------------------|

                     just 1 time
e|-----------------------------------------------------------------------------|
B|-----------1---1/5--5----3---1-----------1--------------1--------------------|
G|------0----------------------------0------------2---------------2------0-----|
D|-----------------------------------------------------------------------------|
A|-----------------------------------------------------------------------------|
E|-----------------------------------------------------------------------------|
                      just 1 time
e|------------------------------------------------------------------------------|
B|-------------------------------------------------------------------------0----|
G|---------------------------------------0--------------------------------------|
D|-------0-----0----2---0h2---0h2--------------0---0h2---0-------------2--------|
A|--------------------------------------------------------------3---------------|
E|------------------------------------------------------------------------------|
                           Repeat all of the above 1 time

| /  slide up
| \  slide down
| h  hammer-on
| p  pull-off
| ~  vibrato
| +  harmonic
| x  Mute note

  note: this is a flat pickin style song
Tap to rate this tab
# A B C D E F G H I J K L M N O P Q R S T U V W X Y Z