Song name
# A B C D E F G H I J K L M N O P Q R S T U V W X Y Z

Misc Traditional - The Chicken Dance tab

The Chicken Dance

e-----------------------------------------------------|
B-----5-5-0-0--------5-5-0-0--------5-5-8-8-7-7-5-4-3-|
G-7-7---------7--7-7---------7--7-7-------------------|
D-----------------------------------------------------|
A-----------------------------------------------------|
E-----------------------------------------------------|

*Interlude

e----------------------------------------------------|
B-----------8--------------------8-------------------|
G-7-6-5-4-7---7-6-5-4--7-6-5-4-7---7-5---------------|
D----------------------------------------------------|
A----------------------------------------------------|
E----------------------------------------------------|
Tap to rate this tab
 
# A B C D E F G H I J K L M N O P Q R S T U V W X Y Z