Song name
# A B C D E F G H I J K L M N O P Q R S T U V W X Y Z

Misc Traditional - Mary Had A Little Lamb tab

Song: Mary had a little lamb (key Bb)
Tabbed by: proudloser (Brad Douglas)

e-----------------------------------------|I
B-----------------------------------------|I
G-----------------------------------0--0--|I
D--2--0-----0--2--2--2--0--0--0--2--------|I
A--------3--------------------------------|I
E-----------------------------------------|I

e-----------------------------------------|I
B-----------------------------------------|I
G-----------------------------------------|I
D--2--0-----0--2--2--2--2--0--0--2--0-----|I
A--------3-----------------------------3--|I
E-----------------------------------------|I
Tap to rate this tab
# A B C D E F G H I J K L M N O P Q R S T U V W X Y Z