Guitaretab - guitar tabs
Song name
# A B C D E F G H I J K L M N O P Q R S T U V W X Y Z

Misc Traditional - O Canada tab

Note: You can play each note with a slight 
vibrato or distortion to make it sound even better.

   O  Can   a    da!
|------7----7--------|
|--9--------------5--|
|--------------------|
|--------------------|
|--------------------|
|--------------------| 

  Our home and na tive land!
|-----------------------------|
|--5---7----9--10--12---7-----|
|-----------------------------|
|-----------------------------|
|-----------------------------|
|-----------------------------|

  True pa  triot love in  all thy sons com  mand.
|----------------------9---11--11--9----9----------|
|---9--11---11----12-------------------------12----|
|--------------------------------------------------|
|--------------------------------------------------|
|--------------------------------------------------|
|--------------------------------------------------|

  Wi th glow  ing hearts w e   see thee rise,
|---------------------------------------------|
|--7/9---10----9----7----9/10---12--10----9---|
|---------------------------------------------|
|---------------------------------------------|
|---------------------------------------------|
|---------------------------------------------|

   The True North strong and free!
|-------9-----7-----5-----4---2----|
|--12------------------------------|
|----------------------------------|
|----------------------------------|
|----------------------------------|
|----------------------------------|
[ Tab from: http://www.guitaretab.com/m/misc-traditional/156064.html ]
  Fr om  far and wide,
|----------------------|
|--7/9---10---9----7---|
|----------------------|
|----------------------|
|----------------------|
|----------------------|

    O   Can  a   da,  we stand on  gu ard for thee.
|-------------------------------7---7\5----4----5---|
|--9h10--12--10---9----5---7------------------------|
|---------------------------------------------------|
|---------------------------------------------------|
|---------------------------------------------------|
|---------------------------------------------------|

  God keep our land  glor  i  ous and free!
|------7----7---------9----9---12--12---5----|
|--9-------------5---------------------------|
|--------------------------------------------|
|--------------------------------------------|
|--------------------------------------------|
|--------------------------------------------|

   O  Can  a   da, we stand on guard for thee.
|----------------------------------------------|
|--12--14--14--12--10---9----7---5----7---9----|
|----------------------------------------------|
|----------------------------------------------|
|----------------------------------------------|
|----------------------------------------------|

   O  Can  a  da, we stand on guard for thee.
|------12--12--9--5----4----2----7------------|
|--9---------------------------------4----5---|
|---------------------------------------------|
|---------------------------------------------|
|---------------------------------------------|
|---------------------------------------------|
Related for O Canada tab
O Canada chords by Misc Traditional