Song name
# A B C D E F G H I J K L M N O P Q R S T U V W X Y Z

Misc Traditional - Tennessee Waltz tab

Help us improve GuitareTab! Take a short survey!
-------------------------------------------------------------------------------
			         TENNESSEE WALTZ
-------------------------------------------------------------------------------


Tuning:EADGBe

e|-----------------8-10-12-12-10-8----8-8-8---------------------------------|
B|-------8-------8-----------------10-------8-8-10-8-9-9-7---7---7----------|
G|-5-7-9---5-7-9-------------------------------------------9---9------------|
D|--------------------------------------------------------------------------|
A|--------------------------------------------------------------------------|
E|--------------------------------------------------------------------------|

e|-----------------8-10-12-12-10-8----8-8-8----------------------------8----|
B|-------8-------8-----------------10-------8-8-10-8-----------------8------|
G|-5-7-9---5-7-9-------------------------------------9-10-9-7------9--------|
D|------------------------------------------------------------9-10----------|
A|--------------------------------------------------------------------------|
E|--------------------------------------------------------------------------|

e|---8-10/12-10-12-10-8------8-8-8------------------------------------------|
B|-8--------------------10-8-------8-8-10-8---------------------------------|
G|------------------------------------------9-9-7---7---7-------------------|
D|------------------------------------------------9---9---------------------|
A|--------------------------------------------------------------------------|
E|--------------------------------------------------------------------------|

e|-----------------8-10-12-12-10-8----8-8-8----------------------------8----|
B|-------8-------8-----------------10-------8-8-10-8-----------------8------|
G|-5-7-9---5-7-9-------------------------------------9-10-9-7------9--------|
D|------------------------------------------------------------9-10----------|
A|--------------------------------------------------------------------------|
E|--------------------------------------------------------------------------|


| /  slide up
| \  slide down
| h  hammer-on
| p  pull-off
| ~  vibrato
| +  harmonic
| x  Mute note
===============================================================================
Related for Tennessee Waltz tab