Song name
# A B C D E F G H I J K L M N O P Q R S T U V W X Y Z

Misc Traditional - Oh Susanna tab

Help us improve GuitareTab! Take a short survey!
-------------------------------------------------------------------------------
			     OH SUSANNA
-------------------------------------------------------------------------------
Tabbed by: T3NNu
Email: t3nnu@luukku.com





e|---------0-0--2-0----------------------------------------------------------|
B|-------2----------2-------------2-2----------------------------------------|
G|---2-4--------------2---------4-----4-2-4----------------------------------|
D|---------------------------------------------------------------------------|
A|---------------------------------------------------------------------------|
E|---------------------------------------------------------------------------|

e|---------0-0--2-0----------------------------------------------------------|
B|-------2---------2-------------2-2-----------------------------------------|
G|---2-4-------------2---------4-----4-2-4-2---------------------------------|
D|---------------------------------------------------------------------------|
A|---------------------------------------------------------------------------|
E|---------------------------------------------------------------------------|

e|---------0-0--2-0----------------------------------------------------------|
B|-------2---------2-------------2-2-----------------------------------------|
G|---2-4-------------2---------4-----4-2-4-2-4-------------------------------|
D|---------------------------------------------------------------------------|
A|---------------------------------------------------------------------------|
E|---------------------------------------------------------------------------|

e|---------0-0--2-0----------------------------------------------------------|
B|-------2---------2--------------2-2----------------------------------------|
G|---2-4--------------2---------4-----4-4-2----------------------------------|
D|---------------------------------------------------------------------------|
A|---------------------------------------------------------------------------|
E|---------------------------------------------------------------------------|

e|---------0-0--2-0-----------------2-2-2-0-0--------------------------------|
B|-------2----------2-----------3-3-----------2-----------2-2----------------|
G|---2----------------2-4-----------------------2-4-----4-----4-4-2----------|
D|---------------------------------------------------------------------------|
A|---------------------------------------------------------------------------|
E|---------------------------------------------------------------------------|
Related for Oh Susanna tab