Song name
# A B C D E F G H I J K L M N O P Q R S T U V W X Y Z

Misc Traditional - Drunken Sailor tab

Help us improve GuitareTab! Take a short survey!
 Drunken Sailor                        
Traditional

L means that note is held.




     Q    E  E  Q    E  E     Q    Q    Q    Q       Q    E  E  Q    E  E   
E||--0----0--0--0----0--0--|--0--------------0----|------------------------|
B||------------------------|------------1---------|--3----3--3--3----3--3--|
G||------------------------|-------2--------------|------------------------|
D||-------------2----L--L--|------------2---------|-------------0----L--L--|
A||--0----L--L-------------|--0----L--------------|------------------------|
E||------------------------|----------------------|--3----L--L-------------|


  Q    Q    Q    Q       Q    E  E  Q    E  E     Q    Q    Q    Q     
----------------------|--0----0--0--0----0--0--|--0----2----3----5----|
--3---------0----3----|------------------------|----------------------|
-------0--------------|------------------------|----------------------|
------------0----L----|-------------2----L--L--|----------------------|
----------------------|--0----L--L-------------|--0----L----L----0----|
--3----L--------------|------------------------|----------------------|


  Q    Q    Q    Q       Q    Q    H           Q    E  E  Q    E  E   
--3----0--------------|---------------------|--0----L--L--0----L--L--|
------------3----0----|---------------------|------------------------|
----------------------|--2----L----2--------|------------------------|
----------------------|---------------------|------------------------|
----------------------|--0---------0--------|--0----0--0--0----0--0--|
--0----L----0----L----|-------0-------------|------------------------|


  Q    Q    Q    Q       Q    E  E  Q    E  E     Q    Q    Q    Q     
--0--------------0----|------------------------|----------------------|
------------1---------|--3----L--L--3----L--L--|--3---------0----3----|
-------2--------------|------------------------|-------0--------------|
----------------------|------------------------|----------------------|
--3----L----L----3----|--0----0--0--0----0--0--|----------------------|
----------------------|------------------------|--3----L----L----3----|


  Q    E  E  Q    E  E     Q    Q    Q    Q       Q    Q    Q    Q     
--0----L--L--0----L--L--|--0----2----3----5----|--3----0--------------|
------------------------|----------------------|------------3----0----|
------------------------|----------------------|----------------------|
------------------------|----------------------|----------------------|
--0----0--0--0----0--0--|--0----L----L----0----|----------------------|
------------------------|----------------------|--0----L----0----L----|


  Q    Q    H           E  E  E  E  Q    E  E     Q    Q    Q    Q     
---------------------|--0--0--0--0--0----0--0--|--0--------------0----|
---------------------|-------------------------|------------1---------|
--2----L----2--------|-------------------------|-------2--------------|
---------------------|--------------2----L--L--|------------2----L----|
--0---------0--------|--0--L--L--L-------------|----------------------|
-------0-------------|-------------------------|--3----L--------------|


  E  E  E  E  Q    E  E     Q    Q    Q    Q       E  E  E  E  Q    E  E   
-------------------------|----------------------|--0--0--0--0--0----0--0--|
--3--3--3--3--3----3--3--|--3---------0----3----|-------------------------|
-------------------------|-------0--------------|-------------------------|
--------------0----L--L--|------------0----L----|--------------2----L--L--|
-------------------------|----------------------|--3--L--L--L-------------|
--3--L--L--L-------------|--3----L--------------|-------------------------|


  Q    Q    Q    Q       Q    Q    Q    Q       Q    Q    H          
--0----2----3----5----|--3----0--------------|---------------------||
----------------------|------------3----0----|---------------------||
----------------------|----------------------|--2----L----2--------||
------------2----L----|----------------------|---------------------||
--0----L--------------|----------------------|--0---------0--------||
----------------------|--0----L----0----L----|-------0-------------||




Duration Legend
---------------
W - whole
H - half
Q - quarter
E - 8th
S - 16th
T - 32nd
X - 64th
. - note dotted
|-n-|  - n-tuplets


Tablature Legend
----------------
L - tied note
x - dead note
g - grace note
(n) - ghost note
> - accentuded note
NH - natural harmonic
AH - artificial harmonic
TH - tapped harmonic
SH - semi harmonic
PH - pitch harmonic
h - hammer on
p - pull off
b - bend
br - bendRelease
pb - preBend
pbr - preBendRelease
brb - bendReleaseBend
\n/ - tremolo bar dip
\n - tremolo bar dive
-/n - tremolo bar Release up
/n\ - tremolo bar inverted dip
/n - tremolo bar return
-\n - tremolo bar Release down
S - shift slide
s - legato slide
/ -  slide into from below or out of upwards
\ -  slide into from above or out of downwards
~ - vibrato
W - wide vibrato
tr - trill
TP - tremolo picking
T - tapping
S - slap
P - pop
< - fade in
^ - brush up
v - brush down
Related for Drunken Sailor tab