Song name
# A B C D E F G H I J K L M N O P Q R S T U V W X Y Z

Misc Traditional - Old Spinning Wheel tab

----------------------------------------------------------------------------
			       Old Spinning Wheel
----------------------------------------------------------------------------


Tabbed by: Dave S.
Email: prime-prine@hotmail.com

Tuning: Standard

|-------------|-9--5--------|-------------|-------------|
|-------5-----|-------5-----|----5--3--0--|-------------|
|-6--7--------|-------------|-6-----------|-------------|
|----------7--|----7-----7--|----7-----2--|----2-----2--|
|-------------|-7-----------|-7-----------|-2-----------|
|-------5-----|-------5-----|-------0-----|-------0-----|


|-------------|-7--4--0-----|----0--------|-------------|
|-0--2--3-----|-------------|-3-----------|-------------|
|-------------|-------------|-------6-----|-------------|
|----2-----2--|----2-----2--|----2-----7--|----7-----7--|
|-2-----------|-------------|-2-----------|-7-----------|
|-------0-----|-7-----0-----|-------5-----|-------5-----|


|-------------|-9--5--------|-------------|-------------|
|-------5-----|-------5-----|----5--3--0--|-------------|
|-6--7--------|-------------|-6-----------|-------------|
|----------7--|----7-----7--|----7-----2--|----2-----2--|
|-------------|-7-----------|-7-----------|-2-----------|
|-------5-----|-------5-----|-------0-----|-------0-----|


|-------------|-7--4--0-----|-2--4--5-----|--------------|
|-0--2--3-----|-------------|-------------|----------10--|
|-------------|-------------|-------------|--------------|
|----2-----2--|----2-----2--|----2-----7--|----7---------|
|-2-----------|-------------|-2-----------|-7------------|
|-------0-----|-7-----0-----|-------5-----|-------5------|


|-----------------|-----------------|-----------------|-------------|
|-10--10--10--10--|-----10--12--10--|-----------------|-5-----------|
|-----------------|-13--------------|-13--11--11------|-------------|
|-------------12--|-----12------12--|-----12------12--|----7-----7--|
|-----------------|-12--------------|-12--------------|-------7-----|
|---------10------|---------10------|---------10------|-5-----------|


|-------------|-0--0--0--0--|-2--0--------|-------------|
|-------2--3--|-------------|-------3--2--|-0-----------|
|-------------|----2-----2--|----2-----2--|-------------|
|----7--------|-------2-----|-------2-----|----2-----2--|
|-------------|-0-----------|-0-----------|-------2-----|
|-5-----------|-------------|-------------|-0-----------|


|-------------|-------9--5--|-------------|-------------|
|-------------|-5-----------|-5--------5--|-3--0--------|
|-------6--7--|-------------|-------6-----|-------------|
|----2--------|----7-----7--|----7-----7--|----2-----2--|
|-------------|-------7-----|-------7-----|-------2-----|
|-0-----------|-5-----------|-5-----------|-0-----------|


|-------------|-------7--4--|-0-----2--4--|-5----|
|-------0--2--|-3-----------|-------------|------|
|-------------|-------------|-------------|------|
|----2-----2--|----2-----2--|----2-----2--|------|
|-------2-----|-------------|-------2-----|------|
|-0-----------|-0-----7-----|-0-----------|-5----|


| /  slide up
| \  slide down
| h  hammer-on
| p  pull-off
| ~  vibrato
| +  harmonic
| x  Mute note
===========================================================================
Tap to rate this tab
 
# A B C D E F G H I J K L M N O P Q R S T U V W X Y Z