Song name
# A B C D E F G H I J K L M N O P Q R S T U V W X Y Z

Misc Traditional - Germany National Anthem tab

I tapped that in D-Tuning, although I think it´s standart normally, please don´t hate me! ^^'

If there´s anything wrong please contact me!

Tuning: D-Standart (DGCFAD)

D |------------------------------------------------| -
A |------------------------------------------------|  |
F |-------------3-------------7--5--3------------5-|  | Play twice
C |-4--5--7--5-----7--5p2--4-----------7--5--7p4---|  | 
G |------------------------------------------------|  |
D |------------------------------------------------| -

Einigkeit und Recht und Freiheit für das deutsche Vaterland!
[2nd Time:]
Danach lasst uns alle streben brüderlich mit Herz und Hand!

D |----------------------------------------------------| 
A |----------------------------------------------------|  
F |-----------------------------5--3--------4--3h5-5~~-|  
C |-5--7--5p2-----8--7--5p2-----------7--7-------------|  
G |------------4-------------4-------------------------|
D |----------------------------------------------------|

Einigkeit und Recht und Freiheit sind des Glückes Unterpfand.

D |-----------------------------------------------------------| -
A |-6--5--5p3-------------------------------------------------|  |
F |-------------5--7--5--5p4--------------5h7-----------------|  | Play twice
C |---------------------------7--5--7--8-------8p5--4--7p5--4-|  | 
G |-----------------------------------------------------------|  |
D |-----------------------------------------------------------| -

Blüh im Glanze dieses Glückes, blühe, deutsches Vaterland!



Legend:

p= pull-off
h= hammer-on
~= vibrato bend
Tap to rate this tab
 
# A B C D E F G H I J K L M N O P Q R S T U V W X Y Z