Guitaretab - guitar tabs
Song name
# A B C D E F G H I J K L M N O P Q R S T U V W X Y Z

Misc Traditional - God Defend New Zealand National Anthem tab

Here it is the new zealand national anthem
[ Tab from: http://www.guitaretab.com/m/misc-traditional/188807.html ]
e|--------------------------------------------------------------|
b|----------0-0------1---0-----------------------0-0-----1-0----|
g|--0---0------2-0---------2-0-------0-------0-2-----0-------2-0|
d|----4---0--------2---0-------4-2-0---0-2-4-----------2--------|
a|--------------------------------------------------------------|
e|--------------------------------------------------------------|


e|-------------0-----------------------------------------------------|
b|-3-3---0-3-3---3---0-1-0----------------------------3-3-1-0-1-0----|
g|-----0-----------2-------2-0---0-------0--------0-2-------------2-0|
d|-----------------------------4---4-2-0----0-2-4--------------------|
a|-------------------------------------------------------------------|
e|-------------------------------------------------------------------|
Related for God Defend New Zealand National Anthem tab
Advertisement will be closed in 10 seconds