Song name
# A B C D E F G H I J K L M N O P Q R S T U V W X Y Z

Misc Traditional - Fra Martino tab

strano che non ci sia questa canzone.. 
e strano che nessuno abbia mai pensato di scriverci la tab.. 
ad ogni modo: penso sia corretta al 100% :D


e:-----0------------0--------0-1-3---0-1-3------3-5-3-1-0--------3-5-3-1-0----|
B:-1-3---1------1-3---1------------------------------------1----------------1-|
G:----------------------------------------------------------------------------|
D:----------------------------------------------------------------------------|
A:----------------------------------------------------------------------------|
E:----------------------------------------------------------------------------|



e:---------------------|
B:-3---1------3---1----|
G:---0----------0------|
D:---------------------|
A:---------------------|
E:---------------------|
Tap to rate this tab
# A B C D E F G H I J K L M N O P Q R S T U V W X Y Z