Song name
# A B C D E F G H I J K L M N O P Q R S T U V W X Y Z

Misc Traditional - Welsh National Anthem tab

----------------------------------------------------------------------------
			 Welsh National Anthem - Traditional
----------------------------------------------------------------------------

Tabbed by: Matt
Email: matt_guitarboy@hotmail.co.uk

Tuning: Standard

Listen to it on Youtube to work out the timing. It's in 3/4, and the first note is on 
third beat of the first bar. At official events it's usually sung in Eb but i've 
it in D to make it easier for beginners to play.

e|-------------------------------------------------------------------------|
B|--------------------------3--3------2--3---------------------------------|
G|----------------2---------------4----------4--2--------------------------|
D|---0--4--2--0------5--4---------------------------4---0---0----------0---|
A|---------------------------------------------------------------4---------|
E|-------------------------------------------------------------------------|

e|-------------------------------------------------------------------------|
B|---------------------------------------------------------2---3---3-----2-|
G|-----------------------------2---2----------2---2----4--------------4----|
D|----4---2---2---2-----4h5-------------4h5--------------------------------|
A|-------------------------------------------------------------------------|
E|-------------------------------------------------------------------------|


e|-------------------------------------------------------------------------|
B|--3-----------------------------------------------3----------------------|
G|------4----2-----------------------------2--------2--------2-------------|
D|----------------4---0----2h4---2--0------0--------0-------------4---0----|
A|-------------------------------------------------------------------------|
E|-------------------------------------------------------------------------|

e|-------------------------------------------------------------------------|
B|------------------------------------------------3-----3------2----3------|
G|---------------------------2---2-----------2--------------4--------------|
D|----0---------0----2----------------4h5----------------------------------|
A|---------4---------------------------------------------------------------|
E|-------------------------------------------------------------------------|

e|-----------------------------------------------3---------|
B|-----------------------------------------------3---------|
G|-----4----2------------------------------------2---------|
D|----------------4-----0-----2----4-----2-------0---------|
A|---------------------------------------------------------|
E|---------------------------------------------------------|


| /  slide up
| \  slide down
| h  hammer-on
| p  pull-off
| ~  vibrato
| +  harmonic
| x  Mute note
============================================================================
Tap to rate this tab
# A B C D E F G H I J K L M N O P Q R S T U V W X Y Z