Song name
# A B C D E F G H I J K L M N O P Q R S T U V W X Y Z

Misc Traditional - The Battle Hymn Of The Republic tab

----------------------------------------------------------------------------
		     The Battle Hymn Of The Republic
----------------------------------------------------------------------------


Tabbed by: Dave S. 
Email: prime-prine@hotmail.com

Tuning: Standard



             C
E|--------|--------------------------|--0---0-0----------------|
B|--------|--------------------1---3-|------------3-1----1---0-|
G|---0----|--0---0-0---------0-------|-------------------------|
D|--------|------------3-2-----------|-------------------------|
A|--------|--------------------------|-------------------------|
E|--------|--------------------------|-------------------------|


F                          C
-------------------------|------------------------|-------------------------|
-----------0-1---0-1-----|------------------------|-------------------1---3-|
-2---2-2---------------2-|-0---2-0-----0----0---0-|-0---0-0---------0-------|
-------------------------|-----------2------------|-----------3-2-----------|
-------------------------|------------------------|-------------------------|
-------------------------|------------------------|-------------------------|

  C                        F         G            C               
--0---0-0---------------|----------------------|--------------------|
------------3-1----1----|--3----3----1----0----|--1-----------------|
------------------------|----------------------|--------------------|
------------------------|----------------------|--------------------|
------------------------|----------------------|--------------------|
------------------------|----------------------|--------------------|

 C                                               F
-------------------------|--0-----------------|-------------------------|
-------------------1---3-|-----------1--------|-----------0-1---0-1-----|
--0--------------0-------|--------------------|--2--------------------2-|
-----------3-2-----------|--------------------|-------------------------|
-------------------------|--------------------|-------------------------|
-------------------------|--------------------|-------------------------|
  
  C                    C                         E7       Am   C
--------------------|-------------------------|--0------------------|
--------------------|-------------------1---3-|-----------1----1----|
--0-----------------|--0--------------0-------|---------------------|
-----------2--------|-----------3-2-----------|---------------------|
--------------------|-------------------------|---------------------|
--------------------|-------------------------|---------------------|

  F                    G                    C 
--------------------|--------------------|---------------------|
--3--------3--------|--1--------0--------|--1------------------|
--------------------|--------------------|---------------------|
--------------------|--------------------|---------------------|
--------------------|--------------------|---------------------|
--------------------|--------------------|---------------------|

| /  slide up
| \  slide down
| h  hammer-on
| p  pull-off
| ~  vibrato
| +  harmonic
| x  Mute note
===========================================================================
Tap to rate this tab
# A B C D E F G H I J K L M N O P Q R S T U V W X Y Z