Song name
# A B C D E F G H I J K L M N O P Q R S T U V W X Y Z

Misc Traditional - Star Spangled Banner tab

e|-10------10-15-19-17-15----------------19-17-15-14-12-14-15-15-15--------|
B|---12--12---------------12-14-15-15-15---------------------------15-12---|
G|-----12---------------------------------------------------------------12-|
D|-------------------------------------------------------------------------|
A|-------------------------------------------------------------------------|
E|-------------------------------------------------------------------------|

e|-------------15-19-17-15--------------19-17-15-14-12-14-15-15------------|
B|-15-12--12-15-----------12-14-15-15-15-----------------------15----------|
G|------12-------------------------------------------------------12--------|
D|-----------------------------------------------------------------12------|
A|-------------------------------------------------------------------------|
E|-------------------------------------------------------------------------|

e|-19-19-19-20-22-22-20-19-17-19-20-20-20-19-17-15-14-12-14-15-------------|
B|------------------------------------------------------------12-14-15-15--|
G|-------------------------------------------------------------------------|
D|-------------------------------------------------------------------------|
A|-------------------------------------------------------------------------|
E|-------------------------------------------------------------------------|

e|15-15-15-14-12-12-12-17-20-19-17-15-15-14--------|
B|-----------------------------------------15-15-15|
D|-------------------------------------------------|
D|-------------------------------------------------|
A|-------------------------------------------------|
E|-------------------------------------------------|

e|-----------------15-17-19-20-22-15-17-19-20-17-15|
B|-------------------------------------------------|
D|-------------------------------------------------|
D|-------------------------------------------------|
A|-------------------------------------------------|
E|-------------------------------------------------|

Thanks,
 God Bless
Tap to rate this tab
# A B C D E F G H I J K L M N O P Q R S T U V W X Y Z