Song name
# A B C D E F G H I J K L M N O P Q R S T U V W X Y Z

Misc Traditional - My Bonnie tab

        My Bonnie                                       

	tabbed by Djordje Putnik (alias George Pootnik)

	www.midiguitar.de

        traditional 3/4 


Chords:                 C                                                  
     H        Q         Q    Q    Q       Q    Q    Q       Q    H         
E||----------------||---0--------------|-----------------|----------------|
B||----------------||--------3----1----|--3----1---------|----------------|
G||-----------0----||*-----------------|------------2----|--0-------------|
D||----------------||*-----------------|-----------------|-------2--------|
A||----------------||------------------|-----------------|----------------|
E||----------------||------------------|-----------------|----------------|


                                                        G             
  Q    Q    Q       Q    Q    Q       Q    Q    Q       H.            
-----------------|--0--------------|-----------------|---------------|
-----------------|-------3----1----|--1----0----1----|--3------------|
------------0----|-----------------|-----------------|---------------|
--L--------------|-----------------|-----------------|---------------|
-----------------|-----------------|-----------------|---------------|
-----------------|-----------------|-----------------|---------------|


                   C                                                  
  H        Q       Q    Q    Q       Q    Q    Q       Q    H         
----------------|--0--------------|-----------------|----------------|
----------------|-------3----1----|--3----1---------|----------------|
-----------0----|-----------------|------------2----|--0-------------|
----------------|-----------------|-----------------|-------2--------|
----------------|-----------------|-----------------|----------------|
----------------|-----------------|-----------------|----------------|


                    F                 G7                C             
  Q    Q    Q       Q    Q    Q       Q    Q    Q       H.            
-----------------|-----------------|-----------------|---------------|----------------|
-----------------|-------3----1----|--0---------0----|--1------------|--L-------------|
------------0----|--2--------------|-------2---------|---------------|----------------|
--L--------------|-----------------|-----------------|---------------|----------------|
-----------------|-----------------|-----------------|---------------|----------------|
-----------------|-----------------|-----------------|---------------|----------------|


   Refrain                                                        
  C                               F                              
  H.              H.              H.              H        Q     
---------------|---------------|---------------|----------------|
---------------|--1------------|---------------|--3--------1----|
--0------------|---------------|--2------------|----------------|
---------------|---------------|---------------|----------------|
---------------|---------------|---------------|----------------|
---------------|---------------|---------------|----------------|


  G                                   C                                              
  Q    Q    Q       Q    Q    Q       H        Q       H.              H.            
-----------------|-----------------|----------------|--0------------|---------------|
--0----0----0----|--0---------0----|--1--------3----|---------------|---------------|
-----------------|-------2---------|----------------|---------------|--0------------|
-----------------|-----------------|----------------|---------------|---------------|
-----------------|-----------------|----------------|---------------|---------------|
-----------------|-----------------|----------------|---------------|---------------|


                  F                                G                                 
  H.              H.              H        Q       Q    Q    Q       Q    Q    Q     
---------------|---------------|----------------|-----------------|-----------------|
--1------------|---------------|--3--------1----|--0----0----0----|--0---------0----|
---------------|--2------------|----------------|-----------------|-------2---------|
---------------|---------------|----------------|-----------------|-----------------|
---------------|---------------|----------------|-----------------|-----------------|
---------------|---------------|----------------|-----------------|-----------------|


  C             1.2.3.              4. End                        
  H.              Q    Q    Q         H        Q      
---------------|------------------||----------------||
--1------------|--L---------------||--L-------------||
---------------|------------0----*||----------------||
---------------|-----------------*||----------------||
---------------|------------------||----------------||
---------------|------------------||----------------||




Duration Legend
---------------
W - whole
H - half
Q - quarter
E - 8th

Tablature Legend
----------------
L - tied note

Tap to rate this tab
# A B C D E F G H I J K L M N O P Q R S T U V W X Y Z